Charlie Brown Jr.
Afine a 6ª corda (mi) em Ré(D),deixado assim:
D,a,d,g,b,e

Introdução

e |-----------------------------------------------------------------|
B |-----------------------------------------------------------------|
G |-----------------------------------------------------------------|
D |-----------------------------------------------------------------|
A |-----------------------------------------------------------------|
D |-4-4-4-4-4-4-4-4-4-4-4-4-6-6-4-6-1-1-1-1-1-1-1-1-1-1-1-6-6-4-6-4-|



e |-----------------------------------------------------------------|
B |-----------------------------------------------------------------|
G |-----------------------------------------------------------------|
D |-----------------------------------------------------------------|
A |-----------------------------------------------------------------|
D |--4-4-4-4-4-4-4-4-4-4-4-4-6-6-4-6-1-1-1-1-1-1-1-1-1-1-1-1-1-1-1--|
                                                |____abafando____|



Repete 2x

e |-----------------------------------------------------------------|
B |-----------------------------------------------------------------|
G |-----------------------------------------------------------------|
D |-4-4-4-4-4-4-4-4-4-4-4-4-6-6-4-6-1-1-1-1-1-1-1-1-1-1-1-6-6-4-6-4-|
A |-4-4-4-4-4-4-4-4-4-4-4-4-6-6-4-6-1-1-1-1-1-1-1-1-1-1-1-6-6-4-6-4-|
D |-4-4-4-4-4-4-4-4-4-4-4-4-6-6-4-6-1-1-1-1-1-1-1-1-1-1-1-6-6-4-6-4-|



Verso

e |-----------------------------------------------------------------|
B |-----------------------------------------------------------------|
G |-----------------------------------------------------------------|
D |--4---------------------------6-1----------------------------6-4-|
A |--4---------------------------6-1----------------------------6-4-|
D |--4---------------------------6-1----------------------------6-4-|



e |-----------------------------------------------------------------|
B |-----------------------------------------------------------------|
G |-----------------------------------------------------------------|
D |-6-1---------------------------6-4--------------------------6-1--|
A |-6-1---------------------------6-4--------------------------6-1--|
D |-6-1---------------------------6-4--------------------------6-1--|


Refrão

e |-----------------------------------------------------------------|
B |-----------------------------------------------------------------|
G |-----------------------------------------------------------------|
D |-----------------------------------------------------------------|
A |-----------------------------------------------------------------|
D |-4-4-4-4-4-4-4-4-4-4-4-4-6-6-4-6-1-1-1-1-1-1-1-1-1-1-1-6-6-4-6-4-|




Repete 

e |-----------------------------------------------------------------|
B |-----------------------------------------------------------------|
G |-----------------------------------------------------------------|
D |--4---------------------------6-1----------------------------6-4-|
A |--4---------------------------6-1----------------------------6-4-|
D |--4---------------------------6-1----------------------------6-4-|



e |-----------------------------------------------------------------|
B |-----------------------------------------------------------------|
G |-----------------------------------------------------------------|
D |-6-1---------------------------6-4--------------------------6-1--|
A |-6-1---------------------------6-4--------------------------6-1--|
D |-6-1---------------------------6-4--------------------------6-1--|


Solo

e |-----------------------------------------------------------------|
B |---11-12-11-12-14-12-11-12-11-12-11b12b11-11---------------------|
G |-----------------------------------------------------------------|
D |---------------------------------------------11------------------|
A |-----------------------------------------------------------------|
D |-----------------------------------------------------------------|



e |------------------------------------13---14----15----16----------|
B |---11-12-11-12-14-12-11-12-11-12-12----12---12----12-------------|
G |-----------------------------------------------------------------|
D |-----------------------------------------------------------------|
A |-----------------------------------------------------------------|
D |-----------------------------------------------------------------|



e |-----------------------------------------------------------------|
B |---11-12-11-12-14-12-11-12-11-12-11b12b11-11---------------------|
G |-----------------------------------------------------------------|
D |---------------------------------------------11------------------|
A |-----------------------------------------------------------------|
D |-----------------------------------------------------------------|


Repete Introdução

Desfecho(2x)

e |-----------------------------------------------------------------|
B |-----------------------------------------------------------------|
G |-----------------------------------------------------------------|
D |-4-4-4-4-4-4-4-4-4-4-4-4-6-6-4-6-1-1-1-1-1-1-1-1-1-1-1-6-6-4-6-4-|
A |-4-4-4-4-4-4-4-4-4-4-4-4-6-6-4-6-1-1-1-1-1-1-1-1-1-1-1-6-6-4-6-4-|
D |-4-4-4-4-4-4-4-4-4-4-4-4-6-6-4-6-1-1-1-1-1-1-1-1-1-1-1-6-6-4-6-4-|



e |-----------------------------------------------------------------|
B |-----------------------------------------------------------------|
G |-----------------------------------------------------------------|
D |--4-4-4-4-4-4-4-4-4-4-4-4-6-6-4-6-1-1-1-1-1-1-1-1-1-1-1-6-6-4--1-|
A |--4-4-4-4-4-4-4-4-4-4-4-4-6-6-4-6-1-1-1-1-1-1-1-1-1-1-1-6-6-4--1-|
D |--4-4-4-4-4-4-4-4-4-4-4-4-6-6-4-6-1-1-1-1-1-1-1-1-1-1-1-6-6-4--1-|
D|[0,"2.6.17",0,""]
12-1-kibodo-charlie-brown-jr|12 + 1|Charlie Brown Jr.|charlie-brown-jr.jpg 121-doze-mais-um-kibodo-charlie-brown-jr|12+1 (doze mais um)|Charlie Brown Jr.|charlie-brown-jr.jpg 333-kibodo-charlie-brown-jr|333|Charlie Brown Jr.|charlie-brown-jr.jpg a-banca-kibodo-charlie-brown-jr|A banca|Charlie Brown Jr.|charlie-brown-jr.jpg a-cera-kibodo-charlie-brown-jr|A cera|Charlie Brown Jr.|charlie-brown-jr.jpg a-estrada-kibodo-charlie-brown-jr|A estrada|Charlie Brown Jr.|charlie-brown-jr.jpg a-grande-volta-kibodo-charlie-brown-jr|A grande volta|Charlie Brown Jr.|charlie-brown-jr.jpg abagabalo-kibodo-charlie-brown-jr|Abagabalo|Charlie Brown Jr.|charlie-brown-jr.jpg abrir-seus-olhos-kibodo-charlie-brown-jr|Abrir seus olhos|Charlie Brown Jr.|charlie-brown-jr.jpg aquela-paz-kibodo-charlie-brown-jr|Aquela paz|Charlie Brown Jr.|charlie-brown-jr.jpg aquele-velho-carteado-e-alguma-manobrinhas-kibodo-charlie-brown-jr|Aquele velho carteado e alguma manobrinh|Charlie Brown Jr.|charlie-brown-jr.jpg aquele-velho-carteado-e-algumas-manobrinhas-kibodo-charlie-brown-jr|Aquele Velho Carteado e Algumas Manobrin|Charlie Brown Jr.|charlie-brown-jr.jpg baader-meinhof-blues-kibodo-charlie-brown-jr|Baader-meinhof blues|Charlie Brown Jr.|charlie-brown-jr.jpg bahia-kibodo-charlie-brown-jr|Bahia|Charlie Brown Jr.|charlie-brown-jr.jpg be-myself-kibodo-charlie-brown-jr|Be myself|Charlie Brown Jr.|charlie-brown-jr.jpg 177
kibodo-ed-sheeran|Ed Sheeran|ed-sheeran.jpg?12 kibodo-coldplay|Coldplay|coldplay.jpg kibodo-justin-bieber|Justin Bieber|justin-bieber.jpg kibodo-bruno-mars|Bruno Mars|bruno-mars.jpg kibodo-adele|Adele|adele.jpg kibodo-oasis|Oasis|oasis.jpg kibodo-red-hot-chili-peppers|Red Hot Chili Peppers|red-hot-chili-peppers.jpg kibodo-the-beatles|The Beatles|the-beatles.jpg kibodo-creed|Creed|creed.jpg kibodo-sia|Sia|sia.jpg kibodo-nirvana|Nirvana|nirvana.jpg kibodo-green-day|Green Day|green-day.jpg kibodo-guns-n-roses|Guns N' Roses|guns-n-roses.jpg kibodo-jason-mraz|Jason Mraz|jason-mraz.jpg kibodo-avicii|Avicii|avicii.jpg 50