A alma e a matéria
Intro : D7 

G7M                G6          Gº
Procuro nas coisas vagas cie eên ciii ia
Am7                  D7/C         G7M          G6
Eu movo dezenas de músculos para sorrir
Dm7             G7     C7M            C6
Nos poros a contrair,    nas pétalas do jasmim
Em7         A7                Am7              D7
Com a brisa que vem roçar da outra margem do mar

G7M      G6                  F#7
Procuro na paisagem cadeeênciiiaa
Am7          D7/C         G7M          G6
Os átomos coreografam a grama do chão
Dm7           G7     C7M            C6
Na pele braile pra ler na superfície de mim
Em7        A7                Am7              D7
Milímetros de prazer, quilômetros de paixão

Refrão

G7M        F#7   Bm7(b5)       E7
Vem pra esse mundo, Deus quer nascer
    A7        D7                  G6         E7(b9)
Há algo invisível e encantado entre eu e você
     A7         D7                         G6
E a alma aproveita pra ser a matéria e viver

Solo : G7M  G6  Gº  Am7   D7  G7M  D7  

Repete música até o refrão, aí substitua por

 G7M        F#7         Bm7(b5)            E7
      Vem pra esse mundo, Deus quer nascer
    A7            D7                      G6         
Há algo invisível e encantado entre eu e você
G7M      F#7         Bm7(b5)            E7
      Vem pra esse mundo, Deus quer nascer
  A7      D7                         G7M   E7(b9)
E a alma aproveita pra ser a matéria e viver
   A7        D7                      G7M   E7(b9)
E a alma aproveita pra ser a matéria e viver
A7     D7                G7M      E7(b9)  
E a alma aproveita pra viver
     A7         D7                    G7M   D7
E a alma aproveita pra ser a matéria e viver


Solo da música


e|----------------------------15-----------------------------
B|------------------12-13--15--------------------------------
G|--------11-12-14-------------------------------------------
D|?12h14---------------------------------
A|-----------------------------------------------------------
E|-----------------------------------------------------------



e|--14-15-15/17--15-14-12---------14---12-14-14/15---------
B|-------------------------15--12------------------15--12--
G|---------------------------------------------------------
D|?--------------------------------------------------------
A|---------------------------------------------------------
E|---------------------------------------------------------



e|---------------12-14---------12--15-15--12------------
B|-----15----15--------15---15------------13------------
G|-12-------------------------------------12------------
D|------------------------------------------------------
A|------------------------------------------------------
E|------------------------------------------------------



Solo final


E|----12-14-10-12----10-----------------
B|----------------12----10-12---9-------
G|--------------------------------12----
D|--------------------------------------
A|--------------------------------------
E|--------------------------------------
|/ainda-bem-kodo-marisa-monte|Ainda bem|Marisa Monte|/tmp/marisa-monte.jpg?9 |/amor-i-love-you-kodo-marisa-monte|Amor i love you|Marisa Monte|/tmp/marisa-monte.jpg?9 |/a-sua-kodo-marisa-monte|A sua|Marisa Monte|/tmp/marisa-monte.jpg?9 |/depois-kodo-marisa-monte|Depois|Marisa Monte|/tmp/marisa-monte.jpg?9 |/ainda-lembro-kodo-marisa-monte|Ainda lembro|Marisa Monte|/tmp/marisa-monte.jpg?9 |/bem-que-se-quis-kodo-marisa-monte|Bem que se quis|Marisa Monte|/tmp/marisa-monte.jpg?9 |/esqueca-kodo-marisa-monte|Esqueça|Marisa Monte|/tmp/marisa-monte.jpg?9 |/nao-va-embora-kodo-marisa-monte|Não vá embora|Marisa Monte|/tmp/marisa-monte.jpg?9 |/velha-infancia-kodo-marisa-monte|Velha infância|Marisa Monte|/tmp/marisa-monte.jpg?9 |/carinhoso-kodo-marisa-monte|Carinhoso|Marisa Monte|/tmp/marisa-monte.jpg?9 13
|/kodo-the-beatles|The beatles||/tmp/the-beatles.jpg?47 |/kodo-maria-rita|Maria rita||/tmp/maria-rita.png?82 |/kodo-ed-sheeran|Ed sheeran||/tmp/ed-sheeran.jpg?9 |/kodo-coldplay|Coldplay||/tmp/coldplay.jpg?9 |/kodo-bob-marley|Bob marley||/tmp/bob-marley.jpg?81 |/kodo-nirvana|Nirvana||/tmp/nirvana.jpg?29 |/kodo-guns-n-roses|Guns n' roses||/tmp/guns-n-roses.png?78 |/kodo-john-lennon|John lennon||/tmp/john-lennon.jpg?31 |/kodo-elvis-presley|Elvis presley||/tmp/elvis-presley.jpg?55 |/kodo-adele|Adele||/tmp/adele.jpg?87 5